ISO-10303-21;
HEADER;
FILE_DESCRIPTION (( 'STEP AP203' ),
    '1' );
FILE_NAME ('FULLVAC BS1KF2526.STEP',
    '2018-07-12T10:35:29',
    ( '' ),
    ( '' ),
    'SwSTEP 2.0',
    'SolidWorks 2017',
    '' );
FILE_SCHEMA (( 'CONFIG_CONTROL_DESIGN' ));
ENDSEC;

DATA;
#1 = APPROVAL_DATE_TIME ( #99, #6 ) ;
#2 = CONICAL_SURFACE ( 'NONE', #168, 19.62940952255491600, 1.308996939000000000 ) ;
#3 = DIRECTION ( 'NONE',  ( 0.0000000000000000000, 0.0000000000000000000, -1.000000000000000000 ) ) ;
#4 = ORIENTED_EDGE ( 'NONE', *, *, #211, .T. ) ;
#5 = LOCAL_TIME ( 12, 35, 29.00000000000000000, #312 ) ;
#6 = APPROVAL ( #62, 'UNSPECIFIED' ) ;
#7 = CYLINDRICAL_SURFACE ( 'NONE', #216, 11.05000000000000100 ) ;
#8 = DIRECTION ( 'NONE',  ( 0.0000000000000000000, 0.0000000000000000000, -1.000000000000000000 ) ) ;
#9 = DIRECTION ( 'NONE',  ( 0.0000000000000000000, 1.000000000000000000, 0.0000000000000000000 ) ) ;
#10 = CARTESIAN_POINT ( 'NONE',  ( 0.0000000000000000000, 2.283663493989480200, -20.00000000000000000 ) ) ;
#11 = PERSON_AND_ORGANIZATION ( #170, #44 ) ;
#12 = ORIENTED_EDGE ( 'NONE', *, *, #222, .T. ) ;
#13 = CARTESIAN_POINT ( 'NONE',  ( 0.0000000000000000000, 2.048321221292523900, -19.99999999999999300 ) ) ;
#14 = DIRECTION ( 'NONE',  ( 0.0000000000000000000, 0.0000000000000000000, -1.000000000000000000 ) ) ;
#15 = FACE_OUTER_BOUND ( 'NONE', #16, .T. ) ;
#16 = EDGE_LOOP ( 'NONE', ( #78 ) ) ;
#17 = DESIGN_CONTEXT ( 'detailed design', #139, 'design' ) ;
#18 = LOCAL_TIME ( 12, 35, 29.00000000000000000, #218 ) ;
#19 = CIRCLE ( 'NONE', #51, 13.10000000000000100 ) ;
#20 = EDGE_LOOP ( 'NONE', ( #158 ) ) ;
#21 = DIRECTION ( 'NONE',  ( 0.0000000000000000000, -1.000000000000000000, 0.0000000000000000000 ) ) ;
#22 =( GEOMETRIC_REPRESENTATION_CONTEXT ( 3 ) GLOBAL_UNCERTAINTY_ASSIGNED_CONTEXT ( ( #160 ) ) GLOBAL_UNIT_ASSIGNED_CONTEXT ( ( #178, #202, #214 ) ) REPRESENTATION_CONTEXT ( 'NONE', 'WORKASPACE' ) );
#23 = DIRECTION ( 'NONE',  ( 0.0000000000000000000, -0.0000000000000000000, -1.000000000000000000 ) ) ;
#24 = CALENDAR_DATE ( 2018, 12, 7 ) ;
#25 = COORDINATED_UNIVERSAL_TIME_OFFSET ( 1, 0, .AHEAD. ) ;
#26 = EDGE_LOOP ( 'NONE', ( #236 ) ) ;
#27 = EDGE_CURVE ( 'NONE', #289, #289, #37, .T. ) ;
#28 = DIRECTION ( 'NONE',  ( 0.0000000000000000000, 1.000000000000000000, 0.0000000000000000000 ) ) ;
#29 = CARTESIAN_POINT ( 'NONE',  ( 12.85000000000000000, 2.348422378588220200E-015, 0.0000000000000000000 ) ) ;
#30 = FACE_OUTER_BOUND ( 'NONE', #260, .T. ) ;
#31 = CARTESIAN_POINT ( 'NONE',  ( 0.0000000000000000000, 1.800700580844956300, -19.62940952255129900 ) ) ;
#32 = CC_DESIGN_PERSON_AND_ORGANIZATION_ASSIGNMENT ( #69, #311, ( #96 ) ) ;
#33 = CARTESIAN_POINT ( 'NONE',  ( 0.0000000000000000000, 1.800700580844956300, -19.62940952255129900 ) ) ;
#34 = CARTESIAN_POINT ( 'NONE',  ( 39.99999999999999300, 2.283663493989480700, -19.99999999999999600 ) ) ;
#35 = LOCAL_TIME ( 12, 35, 29.00000000000000000, #192 ) ;
#36 = CIRCLE ( 'NONE', #113, 11.05000000000000100 ) ;
#37 = CIRCLE ( 'NONE', #91, 12.85000000000000000 ) ;
#38 = CARTESIAN_POINT ( 'NONE',  ( 0.0000000000000000000, 0.0000000000000000000, 0.0000000000000000000 ) ) ;
#39 = DIRECTION ( 'NONE',  ( 1.000000000000000000, 0.0000000000000000000, 0.0000000000000000000 ) ) ;
#40 = AXIS2_PLACEMENT_3D ( 'NONE', #246, #155, #14 ) ;
#41 = VERTEX_POINT ( 'NONE', #235 ) ;
#42 = EDGE_CURVE ( 'NONE', #120, #120, #126, .T. ) ;
#43 = ADVANCED_FACE ( 'NONE', ( #193, #45 ), #254, .T. ) ;
#44 = ORGANIZATION ( 'UNSPECIFIED', 'UNSPECIFIED', '' ) ;
#45 = FACE_OUTER_BOUND ( 'NONE', #26, .T. ) ;
#46 = DIRECTION ( 'NONE',  ( 0.0000000000000000000, -1.000000000000000000, 0.0000000000000000000 ) ) ;
#47 = FACE_OUTER_BOUND ( 'NONE', #128, .T. ) ;
#48 = AXIS2_PLACEMENT_3D ( 'NONE', #121, #68, #143 ) ;
#49 = EDGE_LOOP ( 'NONE', ( #4 ) ) ;
#50 =( BOUNDED_SURFACE ( )  B_SPLINE_SURFACE ( 3, 3, ( 
 ( #205, #305, #55, #237, #131, #232, #33 ),
 ( #302, #107, #281, #83, #253, #152, #299 ),
 ( #56, #184, #154, #114, #233, #84, #13 ),
 ( #256, #34, #276, #134, #85, #112, #159 ) ),
 .UNSPECIFIED., .F., .T., .F. ) 
 B_SPLINE_SURFACE_WITH_KNOTS ( ( 4, 4 ),
 ( 4, 3, 4 ),
 ( 0.0000000000000000000, 1.000000000000000000 ),
 ( 0.0000000000000000000, 0.5000000000000000000, 1.000000000000000000 ),
 .UNSPECIFIED. ) 
 GEOMETRIC_REPRESENTATION_ITEM ( )  RATIONAL_B_SPLINE_SURFACE ( (
 ( 1.000000000000000000, 0.3333333333333333100, 0.3333333333333333100, 1.000000000000000000, 0.3333333333333333100, 0.3333333333333333100, 1.000000000000000000),
 ( 0.8622355601941725800, 0.2874118533980575300, 0.2874118533980575300, 0.8622355601941725800, 0.2874118533980575300, 0.2874118533980575300, 0.8622355601941725800),
 ( 0.8622355601941725800, 0.2874118533980575300, 0.2874118533980575300, 0.8622355601941725800, 0.2874118533980575300, 0.2874118533980575300, 0.8622355601941725800),
 ( 1.000000000000000000, 0.3333333333333333100, 0.3333333333333333100, 1.000000000000000000, 0.3333333333333333100, 0.3333333333333333100, 1.000000000000000000) ) ) 
 REPRESENTATION_ITEM ( '' )  SURFACE ( )  );
#51 = AXIS2_PLACEMENT_3D ( 'NONE', #225, #73, #174 ) ;
#52 = CIRCLE ( 'NONE', #307, 20.00000000000000000 ) ;
#53 = PLANE ( 'NONE',  #188 ) ;
#54 = EDGE_CURVE ( 'NONE', #87, #87, #279, .T. ) ;
#55 = CARTESIAN_POINT ( 'NONE',  ( 39.25881904510259800, 1.800700580844956100, 19.62940952255129900 ) ) ;
#56 = CARTESIAN_POINT ( 'NONE',  ( 0.0000000000000000000, 2.048321221292523900, -19.99999999999999300 ) ) ;
#57 = FACE_BOUND ( 'NONE', #145, .T. ) ;
#58 = EDGE_LOOP ( 'NONE', ( #263 ) ) ;
#59 = DIRECTION ( 'NONE',  ( 0.0000000000000000000, -1.000000000000000000, 0.0000000000000000000 ) ) ;
#60 = CALENDAR_DATE ( 2018, 12, 7 ) ;
#61 = FACE_OUTER_BOUND ( 'NONE', #101, .T. ) ;
#62 = APPROVAL_STATUS ( 'not_yet_approved' ) ;
#63 = PERSON_AND_ORGANIZATION_ROLE ( 'classification_officer' ) ;
#64 = ADVANCED_FACE ( 'NONE', ( #293, #198 ), #241, .T. ) ;
#65 = DIRECTION ( 'NONE',  ( 0.0000000000000000000, 0.0000000000000000000, -1.000000000000000000 ) ) ;
#66 = DATE_AND_TIME ( #92, #272 ) ;
#67 = AXIS2_PLACEMENT_3D ( 'NONE', #29, #200, #23 ) ;
#68 = DIRECTION ( 'NONE',  ( 0.0000000000000000000, -1.000000000000000000, 0.0000000000000000000 ) ) ;
#69 = PERSON_AND_ORGANIZATION ( #170, #44 ) ;
#70 = CYLINDRICAL_SURFACE ( 'NONE', #40, 13.10000000000000100 ) ;
#71 = APPROVAL ( #308, 'UNSPECIFIED' ) ;
#72 = ADVANCED_BREP_SHAPE_REPRESENTATION ( 'FULLVAC BS1KF2526', ( #262, #224 ), #22 ) ;
#73 = DIRECTION ( 'NONE',  ( 0.0000000000000000000, -1.000000000000000000, 0.0000000000000000000 ) ) ;
#74 = EDGE_CURVE ( 'NONE', #206, #206, #52, .T. ) ;
#75 = DATE_AND_TIME ( #24, #35 ) ;
#76 = EDGE_LOOP ( 'NONE', ( #161 ) ) ;
#77 = APPROVAL ( #94, 'UNSPECIFIED' ) ;
#78 = ORIENTED_EDGE ( 'NONE', *, *, #211, .F. ) ;
#79 = PLANE ( 'NONE',  #67 ) ;
#80 = AXIS2_PLACEMENT_3D ( 'NONE', #191, #46, #123 ) ;
#81 = DIRECTION ( 'NONE',  ( 0.0000000000000000000, 0.0000000000000000000, -1.000000000000000000 ) ) ;
#82 = PERSON_AND_ORGANIZATION ( #170, #44 ) ;
#83 = CARTESIAN_POINT ( 'NONE',  ( 0.0000000000000000000, 1.861611643136656900, 19.85673270176684800 ) ) ;
#84 = CARTESIAN_POINT ( 'NONE',  ( -39.99999999999999300, 2.048321221292524400, -19.99999999999999600 ) ) ;
#85 = CARTESIAN_POINT ( 'NONE',  ( -39.99999999999999300, 2.283663493989480700, 19.99999999999999600 ) ) ;
#86 = CARTESIAN_POINT ( 'NONE',  ( 0.0000000000000000000, 2.168404344971008900E-015, -12.85000000000000000 ) ) ;
#87 = VERTEX_POINT ( 'NONE', #252 ) ;
#88 = ORIENTED_EDGE ( 'NONE', *, *, #227, .F. ) ;
#89 = MECHANICAL_CONTEXT ( 'NONE', #209, 'mechanical' ) ;
#90 = APPROVAL_ROLE ( '' ) ;
#91 = AXIS2_PLACEMENT_3D ( 'NONE', #95, #124, #291 ) ;
#92 = CALENDAR_DATE ( 2018, 12, 7 ) ;
#93 = ADVANCED_FACE ( 'NONE', ( #250, #247 ), #138, .F. ) ;
#94 = APPROVAL_STATUS ( 'not_yet_approved' ) ;
#95 = CARTESIAN_POINT ( 'NONE',  ( 0.0000000000000000000, 2.168404344971008900E-015, 0.0000000000000000000 ) ) ;
#96 = PRODUCT_DEFINITION_FORMATION_WITH_SPECIFIED_SOURCE ( 'ANY', '', #167, .NOT_KNOWN. ) ;
#97 = CLOSED_SHELL ( 'NONE', ( #213, #306, #43, #210, #310, #189, #207, #64, #186, #93 ) ) ;
#98 = AXIS2_PLACEMENT_3D ( 'NONE', #146, #150, #8 ) ;
#99 = DATE_AND_TIME ( #180, #5 ) ;
#100 = FACE_OUTER_BOUND ( 'NONE', #270, .T. ) ;
#101 = EDGE_LOOP ( 'NONE', ( #165 ) ) ;
#102 = CARTESIAN_POINT ( 'NONE',  ( 13.10000000000000100, 2.360000000000000300, 0.0000000000000000000 ) ) ;
#103 = PRODUCT_DEFINITION ( 'UNKNOWN', '', #96, #17 ) ;
#104 = CARTESIAN_POINT ( 'NONE',  ( 0.0000000000000000000, 1.800700580831447400, 0.0000000000000000000 ) ) ;
#105 = VERTEX_POINT ( 'NONE', #231 ) ;
#106 = AXIS2_PLACEMENT_3D ( 'NONE', #215, #217, #65 ) ;
#107 = CARTESIAN_POINT ( 'NONE',  ( 39.71346540353366800, 1.861611643136657400, -19.85673270176683400 ) ) ;
#108 = DIRECTION ( 'NONE',  ( 0.0000000000000000000, 0.0000000000000000000, -1.000000000000000000 ) ) ;
#109 = APPROVAL_PERSON_ORGANIZATION ( #129, #71, #118 ) ;
#110 = SHAPE_DEFINITION_REPRESENTATION ( #287, #72 ) ;
#111 = EDGE_LOOP ( 'NONE', ( #296 ) ) ;
#112 = CARTESIAN_POINT ( 'NONE',  ( -39.99999999999999300, 2.283663493989480700, -19.99999999999999600 ) ) ;
#113 = AXIS2_PLACEMENT_3D ( 'NONE', #301, #59, #81 ) ;
#114 = CARTESIAN_POINT ( 'NONE',  ( 0.0000000000000000000, 2.048321221292523900, 19.99999999999999300 ) ) ;
#115 = SECURITY_CLASSIFICATION_LEVEL ( 'unclassified' ) ;
#116 = FACE_OUTER_BOUND ( 'NONE', #298, .T. ) ;
#117 = PERSON_AND_ORGANIZATION_ROLE ( 'creator' ) ;
#118 = APPROVAL_ROLE ( '' ) ;
#119 = CC_DESIGN_PERSON_AND_ORGANIZATION_ASSIGNMENT ( #11, #140, ( #96 ) ) ;
#120 = VERTEX_POINT ( 'NONE', #135 ) ;
#121 = CARTESIAN_POINT ( 'NONE',  ( 11.05000000000000100, 1.100000000000000100, 0.0000000000000000000 ) ) ;
#122 = DIRECTION ( 'NONE',  ( -0.0000000000000000000, 1.000000000000000000, -0.0000000000000000000 ) ) ;
#123 = DIRECTION ( 'NONE',  ( 0.0000000000000000000, 0.0000000000000000000, -1.000000000000000000 ) ) ;
#124 = DIRECTION ( 'NONE',  ( -0.0000000000000000000, 1.000000000000000000, -0.0000000000000000000 ) ) ;
#125 = CC_DESIGN_DATE_AND_TIME_ASSIGNMENT ( #75, #285, ( #103 ) ) ;
#126 = CIRCLE ( 'NONE', #106, 13.10000000000000100 ) ;
#127 = VERTEX_POINT ( 'NONE', #201 ) ;
#128 = EDGE_LOOP ( 'NONE', ( #248 ) ) ;
#129 = PERSON_AND_ORGANIZATION ( #170, #44 ) ;
#130 = DIRECTION ( 'NONE',  ( 0.0000000000000000000, 1.000000000000000000, 0.0000000000000000000 ) ) ;
#131 = CARTESIAN_POINT ( 'NONE',  ( -39.25881904510259800, 1.800700580844956100, 19.62940952255129900 ) ) ;
#132 = ORIENTED_EDGE ( 'NONE', *, *, #283, .F. ) ;
#133 = SECURITY_CLASSIFICATION ( '', '', #115 ) ;
#134 = CARTESIAN_POINT ( 'NONE',  ( 0.0000000000000000000, 2.283663493989480200, 20.00000000000000000 ) ) ;
#135 = CARTESIAN_POINT ( 'NONE',  ( 0.0000000000000000000, 2.360000000000000300, -13.10000000000000100 ) ) ;
#136 = DIRECTION ( 'NONE',  ( 0.0000000000000000000, 0.0000000000000000000, 1.000000000000000000 ) ) ;
#137 = COORDINATED_UNIVERSAL_TIME_OFFSET ( 1, 0, .AHEAD. ) ;
#138 = CYLINDRICAL_SURFACE ( 'NONE', #80, 12.85000000000000000 ) ;
#139 = APPLICATION_CONTEXT ( 'configuration controlled 3d designs of mechanical parts and assemblies' ) ;
#140 = PERSON_AND_ORGANIZATION_ROLE ( 'design_supplier' ) ;
#141 = APPLICATION_PROTOCOL_DEFINITION ( 'international standard', 'config_control_design', 1994, #209 ) ;
#142 = DIRECTION ( 'NONE',  ( 0.0000000000000000000, 0.0000000000000000000, -1.000000000000000000 ) ) ;
#143 = DIRECTION ( 'NONE',  ( 0.0000000000000000000, -0.0000000000000000000, -1.000000000000000000 ) ) ;
#144 = FACE_OUTER_BOUND ( 'NONE', #197, .T. ) ;
#145 = EDGE_LOOP ( 'NONE', ( #313 ) ) ;
#146 = CARTESIAN_POINT ( 'NONE',  ( 0.0000000000000000000, 1.800700580844956300, 0.0000000000000000000 ) ) ;
#147 = CC_DESIGN_PERSON_AND_ORGANIZATION_ASSIGNMENT ( #278, #63, ( #133 ) ) ;
#148 = APPROVAL_PERSON_ORGANIZATION ( #82, #6, #90 ) ;
#149 = EDGE_LOOP ( 'NONE', ( #303 ) ) ;
#150 = DIRECTION ( 'NONE',  ( -0.0000000000000000000, 1.000000000000000000, -0.0000000000000000000 ) ) ;
#151 = DIRECTION ( 'NONE',  ( 0.0000000000000000000, -0.0000000000000000000, 1.000000000000000000 ) ) ;
#152 = CARTESIAN_POINT ( 'NONE',  ( -39.71346540353366800, 1.861611643136657400, -19.85673270176683400 ) ) ;
#153 = DIRECTION ( 'NONE',  ( 0.0000000000000000000, 0.0000000000000000000, -1.000000000000000000 ) ) ;
#154 = CARTESIAN_POINT ( 'NONE',  ( 39.99999999999999300, 2.048321221292524400, 19.99999999999999600 ) ) ;
#155 = DIRECTION ( 'NONE',  ( 0.0000000000000000000, -1.000000000000000000, 0.0000000000000000000 ) ) ;
#156 = DATE_AND_TIME ( #288, #18 ) ;
#157 = FACE_OUTER_BOUND ( 'NONE', #58, .T. ) ;
#158 = ORIENTED_EDGE ( 'NONE', *, *, #74, .T. ) ;
#159 = CARTESIAN_POINT ( 'NONE',  ( 0.0000000000000000000, 2.283663493989480200, -20.00000000000000000 ) ) ;
#160 = UNCERTAINTY_MEASURE_WITH_UNIT (LENGTH_MEASURE( 1.000000000000000100E-005 ), #178, 'distance_accuracy_value', 'NONE');
#161 = ORIENTED_EDGE ( 'NONE', *, *, #297, .T. ) ;
#162 = AXIS2_PLACEMENT_3D ( 'NONE', #179, #204, #153 ) ;
#163 = APPROVAL_DATE_TIME ( #156, #71 ) ;
#164 = PERSON_AND_ORGANIZATION ( #170, #44 ) ;
#165 = ORIENTED_EDGE ( 'NONE', *, *, #42, .T. ) ;
#166 = CARTESIAN_POINT ( 'NONE',  ( 0.0000000000000000000, 3.399999999999999900, 0.0000000000000000000 ) ) ;
#167 = PRODUCT ( 'FULLVAC BS1KF2526', 'FULLVAC BS1KF2526', '', ( #89 ) ) ;
#168 = AXIS2_PLACEMENT_3D ( 'NONE', #104, #268, #196 ) ;
#169 = VERTEX_POINT ( 'NONE', #185 ) ;
#170 = PERSON ( 'UNSPECIFIED', 'UNSPECIFIED', 'UNSPECIFIED', ('UNSPECIFIED'), ('UNSPECIFIED'), ('UNSPECIFIED') ) ;
#171 = CIRCLE ( 'NONE', #162, 11.05000000000000100 ) ;
#172 = EDGE_LOOP ( 'NONE', ( #273 ) ) ;
#173 = AXIS2_PLACEMENT_3D ( 'NONE', #195, #28, #230 ) ;
#174 = DIRECTION ( 'NONE',  ( 0.0000000000000000000, 0.0000000000000000000, -1.000000000000000000 ) ) ;
#175 = DIRECTION ( 'NONE',  ( -0.0000000000000000000, 1.000000000000000000, -0.0000000000000000000 ) ) ;
#176 = FACE_OUTER_BOUND ( 'NONE', #280, .T. ) ;
#177 = CARTESIAN_POINT ( 'NONE',  ( 20.00000000000000000, 4.900000000000000400, 0.0000000000000000000 ) ) ;
#178 =( LENGTH_UNIT ( ) NAMED_UNIT ( * ) SI_UNIT ( .MILLI., .METRE. ) );
#179 = CARTESIAN_POINT ( 'NONE',  ( 0.0000000000000000000, 1.100000000000000100, 0.0000000000000000000 ) ) ;
#180 = CALENDAR_DATE ( 2018, 12, 7 ) ;
#181 = CC_DESIGN_DATE_AND_TIME_ASSIGNMENT ( #271, #284, ( #133 ) ) ;
#182 = FACE_OUTER_BOUND ( 'NONE', #172, .T. ) ;
#183 = EDGE_LOOP ( 'NONE', ( #12 ) ) ;
#184 = CARTESIAN_POINT ( 'NONE',  ( 39.99999999999999300, 2.048321221292524400, -19.99999999999999600 ) ) ;
#185 = CARTESIAN_POINT ( 'NONE',  ( 0.0000000000000000000, 2.360000000000000300, -11.05000000000000100 ) ) ;
#186 = ADVANCED_FACE ( 'NONE', ( #309, #15 ), #79, .T. ) ;
#187 = CIRCLE ( 'NONE', #234, 12.85000000000000000 ) ;
#188 = AXIS2_PLACEMENT_3D ( 'NONE', #102, #130, #223 ) ;
#189 = ADVANCED_FACE ( 'NONE', ( #30, #144 ), #7, .F. ) ;
#190 = ORIENTED_EDGE ( 'NONE', *, *, #42, .F. ) ;
#191 = CARTESIAN_POINT ( 'NONE',  ( 0.0000000000000000000, 0.5500000000000040400, 0.0000000000000000000 ) ) ;
#192 = COORDINATED_UNIVERSAL_TIME_OFFSET ( 1, 0, .AHEAD. ) ;
#193 = FACE_OUTER_BOUND ( 'NONE', #20, .T. ) ;
#194 = EDGE_CURVE ( 'NONE', #286, #286, #242, .T. ) ;
#195 = CARTESIAN_POINT ( 'NONE',  ( 0.0000000000000000000, 1.506433866538259300E-011, 0.0000000000000000000 ) ) ;
#196 = DIRECTION ( 'NONE',  ( 0.0000000000000000000, 0.0000000000000000000, 1.000000000000000000 ) ) ;
#197 = EDGE_LOOP ( 'NONE', ( #132 ) ) ;
#198 = FACE_OUTER_BOUND ( 'NONE', #76, .T. ) ;
#199 = CC_DESIGN_PERSON_AND_ORGANIZATION_ASSIGNMENT ( #295, #212, ( #167 ) ) ;
#200 = DIRECTION ( 'NONE',  ( 0.0000000000000000000, -1.000000000000000000, 0.0000000000000000000 ) ) ;
#201 = CARTESIAN_POINT ( 'NONE',  ( 0.0000000000000000000, 1.100000000000010100, -12.85000000000000000 ) ) ;
#202 =( NAMED_UNIT ( * ) PLANE_ANGLE_UNIT ( ) SI_UNIT ( $, .RADIAN. ) );
#203 = EDGE_LOOP ( 'NONE', ( #290 ) ) ;
#204 = DIRECTION ( 'NONE',  ( -0.0000000000000000000, 1.000000000000000000, -0.0000000000000000000 ) ) ;
#205 = CARTESIAN_POINT ( 'NONE',  ( 0.0000000000000000000, 1.800700580844956300, -19.62940952255129900 ) ) ;
#206 = VERTEX_POINT ( 'NONE', #10 ) ;
#207 = ADVANCED_FACE ( 'NONE', ( #157, #244 ), #2, .T. ) ;
#208 = ORIENTED_EDGE ( 'NONE', *, *, #297, .F. ) ;
#209 = APPLICATION_CONTEXT ( 'configuration controlled 3d designs of mechanical parts and assemblies' ) ;
#210 = ADVANCED_FACE ( 'NONE', ( #57, #61 ), #53, .T. ) ;
#211 = EDGE_CURVE ( 'NONE', #105, #105, #259, .T. ) ;
#212 = PERSON_AND_ORGANIZATION_ROLE ( 'design_owner' ) ;
#213 = ADVANCED_FACE ( 'NONE', ( #266, #100 ), #249, .T. ) ;
#214 =( NAMED_UNIT ( * ) SI_UNIT ( $, .STERADIAN. ) SOLID_ANGLE_UNIT ( ) );
#215 = CARTESIAN_POINT ( 'NONE',  ( 0.0000000000000000000, 2.360000000000000300, 0.0000000000000000000 ) ) ;
#216 = AXIS2_PLACEMENT_3D ( 'NONE', #245, #275, #274 ) ;
#217 = DIRECTION ( 'NONE',  ( -0.0000000000000000000, 1.000000000000000000, -0.0000000000000000000 ) ) ;
#218 = COORDINATED_UNIVERSAL_TIME_OFFSET ( 1, 0, .AHEAD. ) ;
#219 = VERTEX_POINT ( 'NONE', #304 ) ;
#220 = DIRECTION ( 'NONE',  ( 0.0000000000000000000, 0.0000000000000000000, -1.000000000000000000 ) ) ;
#221 = ORIENTED_EDGE ( 'NONE', *, *, #54, .T. ) ;
#222 = EDGE_CURVE ( 'NONE', #219, #219, #19, .T. ) ;
#223 = DIRECTION ( 'NONE',  ( 0.0000000000000000000, -0.0000000000000000000, 1.000000000000000000 ) ) ;
#224 = AXIS2_PLACEMENT_3D ( 'NONE', #38, #136, #39 ) ;
#225 = CARTESIAN_POINT ( 'NONE',  ( 0.0000000000000000000, 4.900000000000000400, 0.0000000000000000000 ) ) ;
#226 = APPROVAL_DATE_TIME ( #66, #77 ) ;
#227 = EDGE_CURVE ( 'NONE', #169, #169, #36, .T. ) ;
#228 = APPROVAL_PERSON_ORGANIZATION ( #164, #77, #261 ) ;
#229 = CARTESIAN_POINT ( 'NONE',  ( 0.0000000000000000000, 2.283663493989480200, 0.0000000000000000000 ) ) ;
#230 = DIRECTION ( 'NONE',  ( 0.0000000000000000000, 0.0000000000000000000, 1.000000000000000000 ) ) ;
#231 = CARTESIAN_POINT ( 'NONE',  ( 0.0000000000000000000, 1.506433866538259300E-011, 12.90910346561506500 ) ) ;
#232 = CARTESIAN_POINT ( 'NONE',  ( -39.25881904510259800, 1.800700580844956100, -19.62940952255129900 ) ) ;
#233 = CARTESIAN_POINT ( 'NONE',  ( -39.99999999999999300, 2.048321221292524400, 19.99999999999999600 ) ) ;
#234 = AXIS2_PLACEMENT_3D ( 'NONE', #257, #258, #108 ) ;
#235 = CARTESIAN_POINT ( 'NONE',  ( 0.0000000000000000000, 1.100000000000000100, -11.05000000000000100 ) ) ;
#236 = ORIENTED_EDGE ( 'NONE', *, *, #54, .F. ) ;
#237 = CARTESIAN_POINT ( 'NONE',  ( 0.0000000000000000000, 1.800700580844956300, 19.62940952255129900 ) ) ;
#238 = CC_DESIGN_PERSON_AND_ORGANIZATION_ASSIGNMENT ( #269, #117, ( #103 ) ) ;
#239 = APPLICATION_PROTOCOL_DEFINITION ( 'international standard', 'config_control_design', 1994, #139 ) ;
#240 = AXIS2_PLACEMENT_3D ( 'NONE', #265, #122, #142 ) ;
#241 = PLANE ( 'NONE',  #48 ) ;
#242 = CIRCLE ( 'NONE', #98, 19.62940952255129900 ) ;
#243 = AXIS2_PLACEMENT_3D ( 'NONE', #177, #9, #151 ) ;
#244 = FACE_BOUND ( 'NONE', #49, .T. ) ;
#245 = CARTESIAN_POINT ( 'NONE',  ( 0.0000000000000000000, 1.730000000000000000, 0.0000000000000000000 ) ) ;
#246 = CARTESIAN_POINT ( 'NONE',  ( 0.0000000000000000000, 3.629999999999999900, 0.0000000000000000000 ) ) ;
#247 = FACE_OUTER_BOUND ( 'NONE', #111, .T. ) ;
#248 = ORIENTED_EDGE ( 'NONE', *, *, #194, .T. ) ;
#249 = PLANE ( 'NONE',  #243 ) ;
#250 = FACE_OUTER_BOUND ( 'NONE', #255, .T. ) ;
#251 = CC_DESIGN_APPROVAL ( #71, ( #96 ) ) ;
#252 = CARTESIAN_POINT ( 'NONE',  ( 0.0000000000000000000, 4.900000000000000400, -20.00000000000000000 ) ) ;
#253 = CARTESIAN_POINT ( 'NONE',  ( -39.71346540353366800, 1.861611643136657400, 19.85673270176683400 ) ) ;
#254 = CYLINDRICAL_SURFACE ( 'NONE', #300, 20.00000000000000000 ) ;
#255 = EDGE_LOOP ( 'NONE', ( #208 ) ) ;
#256 = CARTESIAN_POINT ( 'NONE',  ( 0.0000000000000000000, 2.283663493989480200, -20.00000000000000000 ) ) ;
#257 = CARTESIAN_POINT ( 'NONE',  ( 0.0000000000000000000, 1.100000000000010100, 0.0000000000000000000 ) ) ;
#258 = DIRECTION ( 'NONE',  ( 0.0000000000000000000, -1.000000000000000000, 0.0000000000000000000 ) ) ;
#259 = CIRCLE ( 'NONE', #173, 12.90910346561506500 ) ;
#260 = EDGE_LOOP ( 'NONE', ( #88 ) ) ;
#261 = APPROVAL_ROLE ( '' ) ;
#262 = MANIFOLD_SOLID_BREP ( '\X2\5BE69AD4\X0\2', #97 ) ;
#263 = ORIENTED_EDGE ( 'NONE', *, *, #194, .F. ) ;
#264 = CC_DESIGN_APPROVAL ( #77, ( #103 ) ) ;
#265 = CARTESIAN_POINT ( 'NONE',  ( 0.0000000000000000000, 4.900000000000000400, 0.0000000000000000000 ) ) ;
#266 = FACE_BOUND ( 'NONE', #183, .T. ) ;
#267 = CC_DESIGN_SECURITY_CLASSIFICATION ( #133, ( #96 ) ) ;
#268 = DIRECTION ( 'NONE',  ( 0.0000000000000000000, 1.000000000000000000, 0.0000000000000000000 ) ) ;
#269 = PERSON_AND_ORGANIZATION ( #170, #44 ) ;
#270 = EDGE_LOOP ( 'NONE', ( #221 ) ) ;
#271 = DATE_AND_TIME ( #60, #294 ) ;
#272 = LOCAL_TIME ( 12, 35, 29.00000000000000000, #25 ) ;
#273 = ORIENTED_EDGE ( 'NONE', *, *, #222, .F. ) ;
#274 = DIRECTION ( 'NONE',  ( 0.0000000000000000000, 0.0000000000000000000, -1.000000000000000000 ) ) ;
#275 = DIRECTION ( 'NONE',  ( 0.0000000000000000000, -1.000000000000000000, 0.0000000000000000000 ) ) ;
#276 = CARTESIAN_POINT ( 'NONE',  ( 39.99999999999999300, 2.283663493989480700, 19.99999999999999600 ) ) ;
#277 = CC_DESIGN_APPROVAL ( #6, ( #133 ) ) ;
#278 = PERSON_AND_ORGANIZATION ( #170, #44 ) ;
#279 = CIRCLE ( 'NONE', #240, 20.00000000000000000 ) ;
#280 = EDGE_LOOP ( 'NONE', ( #190 ) ) ;
#281 = CARTESIAN_POINT ( 'NONE',  ( 39.71346540353366800, 1.861611643136657400, 19.85673270176683400 ) ) ;
#282 = ORIENTED_EDGE ( 'NONE', *, *, #74, .F. ) ;
#283 = EDGE_CURVE ( 'NONE', #41, #41, #171, .T. ) ;
#284 = DATE_TIME_ROLE ( 'classification_date' ) ;
#285 = DATE_TIME_ROLE ( 'creation_date' ) ;
#286 = VERTEX_POINT ( 'NONE', #31 ) ;
#287 = PRODUCT_DEFINITION_SHAPE ( 'NONE', 'NONE',  #103 ) ;
#288 = CALENDAR_DATE ( 2018, 12, 7 ) ;
#289 = VERTEX_POINT ( 'NONE', #86 ) ;
#290 = ORIENTED_EDGE ( 'NONE', *, *, #27, .T. ) ;
#291 = DIRECTION ( 'NONE',  ( 0.0000000000000000000, 0.0000000000000000000, -1.000000000000000000 ) ) ;
#292 = PRODUCT_RELATED_PRODUCT_CATEGORY ( 'detail', '', ( #167 ) ) ;
#293 = FACE_BOUND ( 'NONE', #149, .T. ) ;
#294 = LOCAL_TIME ( 12, 35, 29.00000000000000000, #137 ) ;
#295 = PERSON_AND_ORGANIZATION ( #170, #44 ) ;
#296 = ORIENTED_EDGE ( 'NONE', *, *, #27, .F. ) ;
#297 = EDGE_CURVE ( 'NONE', #127, #127, #187, .T. ) ;
#298 = EDGE_LOOP ( 'NONE', ( #282 ) ) ;
#299 = CARTESIAN_POINT ( 'NONE',  ( 0.0000000000000000000, 1.861611643136656900, -19.85673270176684800 ) ) ;
#300 = AXIS2_PLACEMENT_3D ( 'NONE', #166, #21, #220 ) ;
#301 = CARTESIAN_POINT ( 'NONE',  ( 0.0000000000000000000, 2.360000000000000300, 0.0000000000000000000 ) ) ;
#302 = CARTESIAN_POINT ( 'NONE',  ( 0.0000000000000000000, 1.861611643136656900, -19.85673270176684800 ) ) ;
#303 = ORIENTED_EDGE ( 'NONE', *, *, #283, .T. ) ;
#304 = CARTESIAN_POINT ( 'NONE',  ( 0.0000000000000000000, 4.900000000000000400, -13.10000000000000100 ) ) ;
#305 = CARTESIAN_POINT ( 'NONE',  ( 39.25881904510259800, 1.800700580844956100, -19.62940952255129900 ) ) ;
#306 = ADVANCED_FACE ( 'NONE', ( #182, #176 ), #70, .F. ) ;
#307 = AXIS2_PLACEMENT_3D ( 'NONE', #229, #175, #3 ) ;
#308 = APPROVAL_STATUS ( 'not_yet_approved' ) ;
#309 = FACE_BOUND ( 'NONE', #203, .T. ) ;
#310 = ADVANCED_FACE ( 'NONE', ( #47, #116 ), #50, .T. ) ;
#311 = PERSON_AND_ORGANIZATION_ROLE ( 'creator' ) ;
#312 = COORDINATED_UNIVERSAL_TIME_OFFSET ( 1, 0, .AHEAD. ) ;
#313 = ORIENTED_EDGE ( 'NONE', *, *, #227, .T. ) ;
ENDSEC;
END-ISO-10303-21;
